Суббота, 23.09.2017, 08:43
Приветствую Вас Гость | RSS
 
МИР РОК МУЗЫКИ
Главная | Доска объявлений | Регистрация | Вход
МУЗЫКА

Говорун

Облако тегов

Главная » аккорды и табы » иностранные » Scorpions

Always Somewhere
Информация | 12.11.2010, 14:14
Always Somewhere



проигрыш и вступление:
c G D Em
1.-----|-------0-----0-|-------3-----3-|---2----|---0----|-
2.-----|-1-------1-----|---0-----0-----|-----3--|-----0--|-
3.-----|---0-------0---|-----0-----0---|-------2|-------0|-
4.-----|-----2---------|-------0-------|--------|--------|-
5.0-2-3|---------------|---------------|-0------|-2------|-
6.-----|---------------|-3-------------|--------|--------|-

Am
--0-----0---|
----1-----1-|
------2-----|
------------|
0-----------|
------------|

КУПЛЕТЫ:
(arrive at seven the place feels
c G D Em
1.-----|---------------|----------------|--------|--------|-
2.-----|-1-----1-----1-|---0-----0-----0|---3----|---0----|-
3.-----|---0-----0-----|-----0-----0----|-----2--|-----0--|-
4.-----|-----2-----2---|-------0-----0--|-------0|-------2|-
5.0-2-3|---------------|----------------|-0------|-2------|-
6.-----|---------------|-3--------------|--------|--------|-
good)
Am
-----------|
--1-----1--|
----2-----2|
------3----|
0----------|
-----------|

С G D Em Am -----
Arrive at seven, the place feels good
No time to call you today
Encores till eleven then Chinese food
Back to the hotel again

(проигрыш)

I call your number, the line ain´t free
I´d like to tell you come to me
And life without you seems like a lost dream
Love, I can tell you how I feel


припев: (без перебора)
С G
Always somewhere
Am F
Miss you where I´ve been
F G C G
I´ll be back to love you again


Another morning, another place
The only day off is far away
But every city has seen me in the end
And brings me to you again

 
Добавил: phoenix | Контактное лицо: 1 E
Просмотров: 289 | Размещено до: 12.12.2010 | Рейтинг: 0.0/0
Всего комментариев: 0
Добавлять комментарии могут только зарегистрированные пользователи.
[ Регистрация | Вход ]
видео дня

Кабинет
Суббота
23.09.2017
08:43



Баннера/реклама

Дети Земли

Каталог сайтов KNEHT.com http://warriors.ucoz.ua/

Статистика
Онлайн всего: 1
Гостей: 1
Пользователей: 0

Поиск


Copyright MyCorp © 2017

Сделать бесплатный сайт с uCoz